  0
SECTION
  2
HEADER
  9
$ACADVER
  1
AC1009
  9
$INSBASE
 10
60.28593394556621
 20
12.78260869565217
 30
0.0
  9
$EXTMIN
 10
59.45750682082002
 20
11.95418157090598
 30
0.0
  9
$EXTMAX
 10
171.1143610703155
 20
243.6110358203984
 30
0.0
  9
$LIMMIN
 10
0.0
 20
0.0
  9
$LIMMAX
 10
420.0
 20
297.0
  9
$ORTHOMODE
 70
     0
  9
$REGENMODE
 70
     0
  9
$FILLMODE
 70
     1
  9
$QTEXTMODE
 70
     0
  9
$MIRRTEXT
 70
     0
  9
$DRAGMODE
 70
     2
  9
$LTSCALE
 40
1.0
  9
$OSMODE
 70
     0
  9
$ATTMODE
 70
     1
  9
$TEXTSIZE
 40
3.5
  9
$TRACEWID
 40
0.1
  9
$TEXTSTYLE
  7
STANDARD
  9
$CLAYER
  8
0
  9
$CELTYPE
  6
BYLAYER
  9
$CECOLOR
 62
   256
  9
$DIMSCALE
 40
1.0
  9
$DIMASZ
 40
2.0
  9
$DIMEXO
 40
1.0
  9
$DIMDLI
 40
8.0
  9
$DIMRND
 40
0.0
  9
$DIMDLE
 40
0.0
  9
$DIMEXE
 40
2.0
  9
$DIMTP
 40
0.1
  9
$DIMTM
 40
0.1
  9
$DIMTXT
 40
3.5
  9
$DIMCEN
 40
2.0
  9
$DIMTSZ
 40
0.0
  9
$DIMTOL
 70
     0
  9
$DIMLIM
 70
     0
  9
$DIMTIH
 70
     0
  9
$DIMTOH
 70
     0
  9
$DIMSE1
 70
     0
  9
$DIMSE2
 70
     0
  9
$DIMTAD
 70
     1
  9
$DIMZIN
 70
     0
  9
$DIMBLK
  1

  9
$DIMASO
 70
     1
  9
$DIMSHO
 70
     0
  9
$DIMPOST
  1

  9
$DIMAPOST
  1

  9
$DIMALT
 70
     0
  9
$DIMALTD
 70
     2
  9
$DIMALTF
 40
25.39999999999999
  9
$DIMLFAC
 40
1.0
  9
$DIMTOFL
 70
     0
  9
$DIMTVP
 40
0.0
  9
$DIMTIX
 70
     0
  9
$DIMSOXD
 70
     0
  9
$DIMSAH
 70
     0
  9
$DIMBLK1
  1

  9
$DIMBLK2
  1

  9
$DIMSTYLE
  2
*UNNAMED
  9
$DIMCLRD
 70
     0
  9
$DIMCLRE
 70
     0
  9
$DIMCLRT
 70
     0
  9
$DIMTFAC
 40
1.0
  9
$DIMGAP
 40
0.09
  9
$LUNITS
 70
     2
  9
$LUPREC
 70
     3
  9
$SKETCHINC
 40
0.1
  9
$FILLETRAD
 40
20.0
  9
$AUNITS
 70
     0
  9
$AUPREC
 70
     1
  9
$MENU
  1

  9
$ELEVATION
 40
0.0
  9
$PELEVATION
 40
0.0
  9
$THICKNESS
 40
0.0
  9
$LIMCHECK
 70
     0
  9
$BLIPMODE
 70
     0
  9
$CHAMFERA
 40
0.0
  9
$CHAMFERB
 40
0.0
  9
$SKPOLY
 70
     1
  9
$TDCREATE
 40
2448539.601476735
  9
$TDUPDATE
 40
2449393.434381134
  9
$TDINDWG
 40
0.0009987269
  9
$TDUSRTIMER
 40
0.0009987269
  9
$USRTIMER
 70
     1
  9
$ANGBASE
 50
0.0
  9
$ANGDIR
 70
     0
  9
$PDMODE
 70
     0
  9
$PDSIZE
 40
0.0
  9
$PLINEWID
 40
0.0
  9
$COORDS
 70
     2
  9
$SPLFRAME
 70
     0
  9
$SPLINETYPE
 70
     6
  9
$SPLINESEGS
 70
     8
  9
$ATTDIA
 70
     1
  9
$ATTREQ
 70
     1
  9
$HANDLING
 70
     0
  9
$HANDSEED
  5
79
  9
$SURFTAB1
 70
     6
  9
$SURFTAB2
 70
     6
  9
$SURFTYPE
 70
     6
  9
$SURFU
 70
     6
  9
$SURFV
 70
     6
  9
$UCSNAME
  2

  9
$UCSORG
 10
0.0
 20
0.0
 30
0.0
  9
$UCSXDIR
 10
1.0
 20
0.0
 30
0.0
  9
$UCSYDIR
 10
0.0
 20
1.0
 30
0.0
  9
$PUCSNAME
  2

  9
$PUCSORG
 10
0.0
 20
0.0
 30
0.0
  9
$PUCSXDIR
 10
1.0
 20
0.0
 30
0.0
  9
$PUCSYDIR
 10
0.0
 20
1.0
 30
0.0
  9
$USERI1
 70
     0
  9
$USERI2
 70
     3
  9
$USERI3
 70
    15
  9
$USERI4
 70
     0
  9
$USERI5
 70
     0
  9
$USERR1
 40
1.0
  9
$USERR2
 40
1.0
  9
$USERR3
 40
0.0
  9
$USERR4
 40
1.0
  9
$USERR5
 40
0.0
  9
$WORLDVIEW
 70
     1
  9
$SHADEDGE
 70
     3
  9
$SHADEDIF
 70
    70
  9
$TILEMODE
 70
     1
  9
$MAXACTVP
 70
    16
  9
$PINSBASE
 10
0.0
 20
0.0
 30
0.0
  9
$PLIMCHECK
 70
     0
  9
$PEXTMIN
 10
1.000000000000000E+20
 20
1.000000000000000E+20
 30
1.000000000000000E+20
  9
$PEXTMAX
 10
-1.000000000000000E+20
 20
-1.000000000000000E+20
 30
-1.000000000000000E+20
  9
$PLIMMIN
 10
0.0
 20
0.0
  9
$PLIMMAX
 10
12.0
 20
9.0
  9
$UNITMODE
 70
     0
  9
$VISRETAIN
 70
     0
  9
$PLINEGEN
 70
     0
  9
$PSLTSCALE
 70
     0
  9
$TREEDEPTH
 70
  3020
  9
$DWGCODEPAGE
  3
undefined
  0
ENDSEC
  0
SECTION
  2
TABLES
  0
TABLE
  2
VPORT
 70
     2
  0
VPORT
  2
*ACTIVE
 70
     0
 10
0.0
 20
0.0
 11
1.0
 21
1.0
 12
219.0690664756867
 22
137.2524371620602
 13
0.0
 23
0.0
 14
1.0
 24
1.0
 15
10.0
 25
10.0
 16
0.0
 26
0.0
 36
1.0
 17
0.0
 27
0.0
 37
0.0
 40
248.939656932816
 41
1.275675675675675
 42
50.0
 43
0.0
 44
0.0
 50
0.0
 51
0.0
 71
     0
 72
   100
 73
     1
 74
     0
 75
     0
 76
     0
 77
     0
 78
     0
  0
ENDTAB
  0
TABLE
  2
LTYPE
 70
     1
  0
LTYPE
  2
AUSGEZOGEN
 70
    64
  3
Solid line
 72
    65
 73
     0
 40
0.0
  0
ENDTAB
  0
TABLE
  2
LAYER
 70
     2
  0
LAYER
  2
0
 70
     0
 62
     7
  6
AUSGEZOGEN
  0
LAYER
  2
ITEM_50
 70
    64
 62
     7
  6
AUSGEZOGEN
  0
ENDTAB
  0
TABLE
  2
STYLE
 70
     1
  0
STYLE
  2
STANDARD
 70
     0
 40
0.0
 41
1.0
 50
0.0
 71
     0
 42
3.5
  3
iso
  4

  0
ENDTAB
  0
TABLE
  2
VIEW
 70
     0
  0
ENDTAB
  0
TABLE
  2
UCS
 70
     0
  0
ENDTAB
  0
TABLE
  2
APPID
 70
     1
  0
APPID
  2
ACAD
 70
    64
  0
ENDTAB
  0
TABLE
  2
DIMSTYLE
 70
     0
  0
ENDTAB
  0
ENDSEC
  0
SECTION
  2
BLOCKS
  0
ENDSEC
  0
SECTION
  2
ENTITIES
  0
ARC
  8
ITEM_50
 10
77.28593394556621
 20
24.78260869565218
 30
0.0
 40
2.0
 50
179.9999999999999
 51
269.9999999999998
  0
ARC
  8
ITEM_50
 10
83.28593394556622
 20
24.78260869565217
 30
0.0
 40
2.0
 50
270.0
 51
0.0
  0
ARC
  8
ITEM_50
 10
96.28593394556622
 20
56.78260869565217
 30
0.0
 40
4.0
 50
270.0
 51
0.0000000000000509
  0
ARC
  8
ITEM_50
 10
64.28593394556624
 20
56.78260869565217
 30
0.0
 40
4.0
 50
180.0
 51
270.0
  0
ARC
  8
ITEM_50
 10
96.28593394556622
 20
16.78260869565218
 30
0.0
 40
4.0
 50
270.0
 51
0.0
  0
ARC
  8
ITEM_50
 10
64.28593394556621
 20
16.78260869565217
 30
0.0
 40
4.0
 50
180.0
 51
270.0
  0
LINE
  8
ITEM_50
 10
75.28593394556621
 20
24.78260869565218
 30
0.0
 11
75.28593394556622
 21
52.78260869565217
 31
0.0
  0
LINE
  8
ITEM_50
 10
83.28593394556622
 20
22.78260869565217
 30
0.0
 11
77.28593394556621
 21
22.78260869565218
 31
0.0
  0
LINE
  8
ITEM_50
 10
85.28593394556622
 20
52.78260869565217
 30
0.0
 11
85.28593394556622
 21
24.78260869565217
 31
0.0
  0
LINE
  8
ITEM_50
 10
64.28593394556624
 20
52.78260869565217
 30
0.0
 11
96.28593394556622
 21
52.78260869565217
 31
0.0
  0
LINE
  8
ITEM_50
 10
100.2859339455662
 20
72.78260869565217
 30
0.0
 11
100.2859339455662
 21
16.78260869565218
 31
0.0
  0
LINE
  8
ITEM_50
 10
60.28593394556622
 20
72.78260869565217
 30
0.0
 11
100.2859339455662
 21
72.78260869565217
 31
0.0
  0
LINE
  8
ITEM_50
 10
60.28593394556621
 20
16.78260869565217
 30
0.0
 11
60.28593394556622
 21
72.78260869565217
 31
0.0
  0
LINE
  8
ITEM_50
 10
96.28593394556622
 20
12.78260869565218
 30
0.0
 11
64.28593394556621
 21
12.78260869565217
 31
0.0
  0
LINE
  8
ITEM_50
 10
170.2859339455693
 20
82.782608695649
 30
0.0
 11
170.2859339455693
 21
98.78260869564896
 31
0.0
  0
LINE
  8
ITEM_50
 10
166.2859339455693
 20
102.7826086956489
 30
0.0
 11
138.2859339455692
 21
102.782608695649
 31
0.0
  0
LINE
  8
ITEM_50
 10
130.2859339455692
 20
110.782608695649
 30
0.0
 11
130.2859339455692
 21
238.782608695649
 31
0.0
  0
LINE
  8
ITEM_50
 10
126.2859339455692
 20
242.782608695649
 30
0.0
 11
110.2859339455693
 21
242.782608695649
 31
0.0
  0
LINE
  8
ITEM_50
 10
110.2859339455693
 20
242.782608695649
 30
0.0
 11
110.2859339455693
 21
82.78260869564898
 31
0.0
  0
LINE
  8
ITEM_50
 10
110.2859339455693
 20
82.78260869564898
 30
0.0
 11
170.2859339455693
 21
82.782608695649
 31
0.0
  0
ARC
  8
ITEM_50
 10
166.2859339455693
 20
98.78260869564896
 30
0.0
 40
4.0
 50
0.000000000000007
 51
90.0
  0
ARC
  8
ITEM_50
 10
126.2859339455692
 20
238.782608695649
 30
0.0
 40
4.0
 50
0.000000000000007
 51
90.0
  0
ARC
  8
ITEM_50
 10
138.2859339455692
 20
110.782608695649
 30
0.0
 40
8.0
 50
180.0
 51
270.0
  0
CIRCLE
  8
ITEM_50
 10
80.2859339455725
 20
202.7826086956521
 30
0.0
 40
4.599999999999999
  0
CIRCLE
  8
ITEM_50
 10
80.2859339455725
 20
202.7826086956521
 30
0.0
 40
7.0
  0
LINE
  8
ITEM_50
 10
85.28593394557248
 20
104.7826086956521
 30
0.0
 11
85.28593394557248
 21
102.7826086956521
 31
0.0
  0
LINE
  8
ITEM_50
 10
75.28593394557248
 20
104.7826086956521
 30
0.0
 11
85.28593394557248
 21
104.7826086956521
 31
0.0
  0
LINE
  8
ITEM_50
 10
75.28593394557253
 20
102.7826086956522
 30
0.0
 11
75.28593394557248
 21
104.7826086956521
 31
0.0
  0
ARC
  8
ITEM_50
 10
96.28593394557253
 20
98.78260869565218
 30
0.0
 40
4.0
 50
0.0
 51
90.00000000000001
  0
ARC
  8
ITEM_50
 10
64.28593394557256
 20
98.78260869565218
 30
0.0
 40
4.0
 50
90.00000000000001
 51
180.0
  0
ARC
  8
ITEM_50
 10
96.2859339455725
 20
238.7826086956521
 30
0.0
 40
4.0
 50
0.0
 51
89.9999999999999
  0
ARC
  8
ITEM_50
 10
64.2859339455725
 20
238.7826086956522
 30
0.0
 40
4.0
 50
89.99999999999992
 51
180.0
  0
ARC
  8
ITEM_50
 10
86.03593394557248
 20
192.7826086956521
 30
0.0
 40
2.0
 50
0.0000000000000509
 51
90.0
  0
ARC
  8
ITEM_50
 10
74.5359339455725
 20
192.7826086956521
 30
0.0
 40
2.0
 50
90.0
 51
179.9999999999999
  0
LINE
  8
ITEM_50
 10
84.38593394557253
 20
164.4205779761144
 30
0.0
 11
88.0359339455725
 21
164.4205779761144
 31
0.0
  0
LINE
  8
ITEM_50
 10
72.5359339455725
 20
164.4205779761144
 30
0.0
 11
76.18593394557254
 21
164.4205779761144
 31
0.0
  0
LINE
  8
ITEM_50
 10
88.0359339455725
 20
162.8799532049538
 30
0.0
 11
89.45014750794561
 21
161.4657396425807
 31
0.0
  0
LINE
  8
ITEM_50
 10
72.5359339455725
 20
162.8799532049538
 30
0.0
 11
71.1217203831994
 21
161.4657396425807
 31
0.0
  0
ARC
  8
ITEM_50
 10
86.0359339455725
 20
228.7826086956521
 30
0.0
 40
2.0
 50
0.0
 51
89.99999999999977
  0
ARC
  8
ITEM_50
 10
74.53593394557253
 20
228.7826086956522
 30
0.0
 40
2.0
 50
89.99999999999978
 51
179.9999999999999
  0
LINE
  8
ITEM_50
 10
84.3859339455725
 20
166.7826086956521
 30
0.0
 11
84.3859339455725
 21
162.8799532049538
 31
0.0
  0
LINE
  8
ITEM_50
 10
76.18593394557251
 20
166.7826086956521
 30
0.0
 11
84.3859339455725
 21
166.7826086956521
 31
0.0
  0
LINE
  8
ITEM_50
 10
76.18593394557254
 20
162.8799532049538
 30
0.0
 11
76.18593394557251
 21
166.7826086956521
 31
0.0
  0
LINE
  8
ITEM_50
 10
74.5359339455725
 20
194.7826086956521
 30
0.0
 11
86.03593394557248
 21
194.7826086956521
 31
0.0
  0
LINE
  8
ITEM_50
 10
88.0359339455725
 20
162.8799532049538
 30
0.0
 11
72.5359339455725
 21
162.8799532049538
 31
0.0
  0
LINE
  8
ITEM_50
 10
88.0359339455725
 20
162.8799532049538
 30
0.0
 11
88.03593394557245
 21
228.7826086956521
 31
0.0
  0
LINE
  8
ITEM_50
 10
74.53593394557253
 20
230.7826086956522
 30
0.0
 11
86.0359339455725
 21
230.7826086956521
 31
0.0
  0
LINE
  8
ITEM_50
 10
72.5359339455725
 20
162.8799532049538
 30
0.0
 11
72.5359339455725
 21
228.7826086956522
 31
0.0
  0
LINE
  8
ITEM_50
 10
64.28593394557256
 20
102.7826086956521
 30
0.0
 11
96.28593394557253
 21
102.7826086956521
 31
0.0
  0
LINE
  8
ITEM_50
 10
60.2859339455725
 20
238.7826086956522
 30
0.0
 11
60.28593394557253
 21
82.78260869565217
 31
0.0
  0
LINE
  8
ITEM_50
 10
96.2859339455725
 20
242.7826086956521
 30
0.0
 11
64.2859339455725
 21
242.7826086956522
 31
0.0
  0
LINE
  8
ITEM_50
 10
100.2859339455725
 20
82.78260869565215
 30
0.0
 11
100.2859339455725
 21
238.7826086956521
 31
0.0
  0
LINE
  8
ITEM_50
 10
60.2859339455725
 20
82.78260869565217
 30
0.0
 11
100.2859339455725
 21
82.78260869565215
 31
0.0
  0
LINE
  8
ITEM_50
 10
78.84255827259843
 20
205.2826086956521
 30
0.0
 11
77.39918259962436
 21
202.7826086956521
 31
0.0
  0
LINE
  8
ITEM_50
 10
77.39918259962436
 20
202.7826086956521
 30
0.0
 11
78.84255827259843
 21
200.2826086956521
 31
0.0
  0
LINE
  8
ITEM_50
 10
78.84255827259843
 20
200.2826086956521
 30
0.0
 11
81.72930961854657
 21
200.2826086956521
 31
0.0
  0
LINE
  8
ITEM_50
 10
81.72930961854657
 20
200.2826086956521
 30
0.0
 11
83.17268529152065
 21
202.7826086956521
 31
0.0
  0
LINE
  8
ITEM_50
 10
83.17268529152065
 20
202.7826086956521
 30
0.0
 11
81.72930961854657
 21
205.2826086956521
 31
0.0
  0
LINE
  8
ITEM_50
 10
81.72930961854657
 20
205.2826086956521
 30
0.0
 11
78.84255827259843
 21
205.2826086956521
 31
0.0
  0
ENDSEC
  0
EOF
